rhcpfrance RhcpFrance
Prochain concert dans :
Flash info :
Sélection du moment :
Tablature

guitare I Could Have Lied (live)



****************
= GIVE IT AWAY =
****************

from "Blood Sugar Sex Magik"
Music by KiedisFleaFruscianteSmith
Warner Bros. Music 1991
BUY THE OFFICIAL TAB BOOK!!>

Tabbed by Sean Brokenshire

INTRO

e||---------------------11p0-11p0-11p0--------|
b||------------13-------13---13---13----------|
g||------------11b12---11b12slowlydropback11--|
D||-7--7-7-7----------------------------------|
A||-0--0-0-0----------------------------------|
E||-------------------------------------------|

e|--------------------------------------------|
b|------------13-------17-17-17-17-17-17-17---|
g|------------11b12----16-16-16-16-16-16-16---|
D|-7--7-7-7-----------------------------------|
A|-0--0-0-0-----------------------------------|
E|--------------------------------------------|

VERSE

e|-----------------------------------------------------------------|
b|---------------------------5~---------------------------b--------|
g|*---7--6-5-------------7-8---------7-6-5~-----------7--5'-------*|
D|*-7--------5-5-7---7-----------7---------5-5-7-------------5----*|
A|--0---------------(0)-----------------------(0)------------------|
E|-----------------------------------------------------------------|

CHORUS

e|---------|
b|---------|
g|*-------*|
D|*-7-7-7-*| Play as fast as your wrist will go!
A|--0-0-0--|
E|---------|

SOLO

Improvise in E blues or E minor scale (The recording is a reversed track,
which is impossible to recreate normally)

ENDING

e|----------------|
b|----------------|
g|*-------7-6-5~-*|
D|*-7-7-x-7-6-5~-*|
A|--7-7-x-5-4-3~--|
E|--5-5-----------|

***********************************************************************