rhcpfrance RhcpFrance
Aucun concert pour le moment
Flash info :
Sélection du moment :
Tablature

guitare Aeroplane



Red Hot Chili Peppers "AEROPLANE", from the album "One Hot Minute"


INTRO:


E-|-3------------------------|---------5---6-----------------|--------5-------------------|---------|----------|
B-|-5------------------------|---------5---5---7------5----|----3---3---6--------5----|----3----|----5----|
G-|-5--------5/7/5---5----|---------5----------8---5-----|----3------------3---5----|----3----|----5----|
D-|---------------------5----|----(5)-------------------------|----------------------------|----------|----5----|
A-|---------------------------|--------------------------------|----------------------------|-----------|----3---|
E-|---------------------------|--------------------------------|----------------------------|-----------|---------|


RIFF 1: Clean sound (Funk)



E-|-6-6-6-6-6-6-6-6-6-6-6-6-6-6-6-6--6-6-6-6-6-6-6-6-6-6-6-6-6-6-6-6----|
B-|-6-6-6-6-6-6-6-6-6-6-6-6-6-6-6-6--5-5-5-5-5-5-5-5-5-5-5-5-5-5-5-5----|
G-|-5-5-5-5-5-5-5-5-5-5-5-5-5-5-5-5--5-5-5-5-5-5-5-5-5-5-5-5-5-5-5-5----|
D-|---------------------------------------------------------------------------------------------|
A-|---------------------------------------------------------------------------------------------|
E-|---------------------------------------------------------------------------------------------|


RIFF 2: With Wah-Wah and Distortion
E-|-----------------------------|
B-|-----------------------------|
G-|--3------3-----3-----3----|
D-|--3------3-----2-----2----|
A-|-----------------------------|
E-|-----------------------------|
(The 2nd time Dave does it, he does something else. It's still good if you do it this way.)
RIFF 3: Clean sound (Funk)


E-|-18--18----18--18----18--18----18--18----|
B-|-18--18----18--18----17--17----17--17----|
G-|-17--17----17--17----17--17----17--17----|
D-|-----------------------------------------------------|
A-|-----------------------------------------------------|
E-|-----------------------------------------------------|
RIFF 4: Very slow and soft.


E-|-1-1-1-1-1-1-1-1--3-3-3-3-3-3-3-3----3--3--3----|
B-|-3-3-3-3-3-3-3-3--3-3-3-3-3-3-3-3----3--3--3----|
G-|-3-3-3-3-3-3-3-3--3-3-3-3-3-3-3-3----3--3--3----|
D-|---------------------------------------------------------------|
A-|---------------------------------------------------------------|
E-|---------------------------------------------------------------|


SOLO: With Wah-Wah and Distortion


E-|-----------------------17(1/2)----17/15--------15--15-----------------------|
B-|-18(20)----18/15------------------------18---------------18-----------------|
G-|------------------------------------------------------------------------15(1/4)---|
D-|-------------------------------------------------------------------------------------|
A-|-------------------------------------------------------------------------------------|
E-|-------------------------------------------------------------------------------------|

E-|----------------------------------------------------------------------------|
B-|----------------------------------------------------------------------------|
G-|----------------------------------------------------------------------------|
D-|-15/17----15/17--15/17---------------------------------------------|
A-|---------------------------------15(17)---15---15(17)---15(17)----|
E-|----------------------------------------------------------------------------|

E-|---------------------------------------------------------------------------------------|
B-|---------------------------------------------------------------------------------------|
G-|---------------------------------------------------------------------------------------|
D-|---------------------------------------------------------------------------------------|
A-|----------------13----------13-13(1/2)/13----------13-----------------13----|
E-|-15--13/15-------13/15--------------------13/15------15---13/15---------|

E-|-----------------------------------------------------------------------------------|
B-|-----------------------------------------------------------------------------------|
G-|-----------------------------------------------------------------------------------|
D-|-----------------------------------------------------------------------------------|
A-|--------------------------13-----------15(17)---17(20)--15/13/15/13---|
E-|-13/6--6/3---13/15------13/15--------------------------------------------|

E-|-----------------------------------------------------------------------------------------------|
B-|-----------------------------------------------------------------------------------------------|
G-|-----------------------------------------------15/17--17(19)--17/15/17--17(19)---|
D-|----------------18(20)--17/15/17--17--------------------------------------------------|
A-|-13/15/13---------------------------------------------------------------------------------|
E-|----------------------------------------------------------------------------------------------|

E-|------------------------------------------------------------------------------------------|
B-|------------------------------------------------------------------------------------------|
G-|-17/15/17--17(19)--17/15/17----------15-------------------------------------|
D-|---------------------------------------15/17--------17/15---------------------------|
A-|------------------------------------------------------------------17------15-----------|
E-|-----------------------------------------------------------------------18------18------|

E-|------------------------------------------------------------|
B-|------------------------------------------------------------|
G-|------------------------------------------------------------|
D-|-------------------------------------16/17--15----------|
A-|--------------------------------14-----------------14----|
E-|-15/18---15/18---15/18-----------------------------|



(I did my best to figure it out. It sure isn't what dave plays but it's a simplified version

that sounds almost like it).


------------------------------------------------------------------------------------------------------------------------


FORMAT OF THE SONG:


- Intro

- "I like pleasure...aeoroplane": RIFF1

- "Pleasure...that mother fuckers...pain": RIFF2

- "Looking in my...make it disappear, have no fear!: RIFF3"

- "I like pleasure...aeoroplane": RIFF1

- "Pleasure...that mother fuckers...pain": RIFF2

- "Sitting in my...you're sad, sad like me!": RIFF1

- "I like pleasure...aeoroplane": RIFF1

- "Pleasure spiked with pain...just one note...make me die": RIFF4

- "I like pleasure...aeoroplane": RIFF1

- "It's my aeroplane (children)...": SOLO


All right guys, have fun! Some things might be wrong but a real Pepper should know how to improvise on it...

Anyway, if you have anything to correct, any questions, e-mail me...


Transcribed by Anthony M.


E-MAIL: 76752.3042@compuserve.com


RED HOT CHILI PEPPERS MAIN PAGE: http://ourworld.compuserve.com/homepage/Red_Hot_Chili_Peppers