rhcpfrance RhcpFrance
Prochain concert dans :
Flash info :
Sélection du moment :
Tablature

guitare Coffee Shop



========
Newsgroups: rec.music.makers.guitar.tablature
Subject: TAB: Coffee Shop - Red Hot Chili Peppers
From: chthibau@pratique.fr (rOn/pSd!)
Date: Sat, 25 Nov 1995 14:52:18 GMT
Coffee Shop - The Red Hot Chili Peppers

Here is some beginning tab for this GREAT! song :

Theme :

1st guitar :

E-|---------------------------------------------------------------------|
B-|---------------------------------------------------------------------|
G-|---------------------------------------------------------------------|
D-|-2--x--x--x--x--2--x--x--x--x--2--2--2--x--x--x--x--2--x--x--x--2--2-|
A-|-2--x--x--x--x--2--x--x--x--x--2--2--2--x--x--x--x--2--x--x--x--2--2-|
E-|-0--x--x--x--x--0--x--x--x--x--0--0--0--x--x--x--x--0--x--x--x--0--0-|




2nd guitar :
E-|----------------------------------------------------------xxxx//12-12|
B-|----------------------------------------------------------xxxx//12-12|
G-|-------------------------------4--3~~~~~~~~~~~~~~~~~~~~~~~xxxx//12-12|
D-|---------------------------------------------------------------------|
A-|---------------------------------------------------------------------|
E-|---------------------------------------------------------------------|

I am just a lousy bum
Searching for the unknown crumb, the crumb, the crumb
Something of someone to come
Come along illumate my lust, combust
Confucing might have been confused
And buddha might have blown a face, booze the muse


Chorus :
E-|---------------------------------------------------------------------------|
B-|---------------------------------------------------------------------------|
G-|---------------------------------------------------------------------------|
D-|---------------------------------------------------------------------------|
A-|-7----7----5-----5-----2----------2-------------2----------2---------------|
E-|-5----5----3-----3-----0----------0-------------0----------0---------------|
Meet me at the Coffee shop

Where we can dance like Iggy Pop

E-|---------------------------------------------------------------------------|
B-|---------------------------------------------------------------------------|
G-|---------------------------------------------------------------------------|
D-|-----------5----5-------------------------------------------------------|
A-|-7--7--7-7-3----3---2---2----2---------7----7------5--5--4-------4--4----5-----|
E-|-5--5--5-5----------0---0----0---------5-----5-----3--3--2-------2--2----3---|
Another go in the parking lot
Frewak the


E-|--------------------------------------|
B-|--------------------------------------|
G-|--------------------------------------|
D-|-5------5---------9----10---12----14\-|
A-|-3------3---7-------------------------|
E-|------------5-----7----8----10----12\-|
cheek on your hotspo-ot





And then back to theme, chorus again and .... the strange part with

the

strange bass, and then the BASS SOLO ; too hard for me to transcribe

!!

Note that you can play the theme on one guitar only but the result is
better on
2 guitars ...

If someone could continue this tab, it would greatly be appreciated !
Some suggestions or comments are greatly welcomed ...





========

Red Hot Chili Peppers CoffeeShop One Hot MinuteTabbed by Andrew LoSurdo
Intro:

e|--------------------------------------------------------|
B|--------------------------------------------------------|
G|--9-9-9-9-9-9-9-9-9-9-9-9-9-9-9-9-9-9-9-9-9-9-9-9-9-9---|
D|--------------------------------------------------------|
A|--------------------------------------------------------|
E|--------------------------------------------------------|
Verse: E5 G5
e|-----|-----|
B|-----|-----|
G|-----|-----|
D|--2--|--5--|
A|--2--|--5--|
E|--0--|--3--|
E5 G5 E5 G5 E5
e|----------------|--------------------|-------------------|----0--------|
B|----------------|-------8--9-9-9\----|-------------------|----0--------|
G|----------------|-------6--7-7-7\----|-------------------|----X--------|
D|--7--7--5-5---2-|--------------------|--7--7---10-10---2-|----2--------|
A|--7--7--5-5---2-|--------------------|--7--7---10-10---2-|----2--------|
E|--5--5--3-3---0-|---0--------------X-|--5--5----8--8---0-|----0--------|

e|----------------|-------------|--------------|-----------------------|
B|----------------|-----------5-|--2-----------|-----------------------|
G|--6--6--4-4---3-|--3--4--4--3-|--3-----------|-----------------------|
D|--7--7--5-5---4-|--4--5--5--X-|-----10-10--7-|-/9-9/11-11/12--12--14-|
A|--7--7--5-5---4-|--4--5--5--4-|--4--10-10----|-----------------------|
E|--5--5--3-3---2-|--2--3--3--2-|--2---8--8--5-|-/7-7/9---9/10--10--12-|
Bass Solo:

e|-------------x-15--15---------------|
B|--12----12---x-15--15---12------12--|
G|--12----12--------------12------12--| Repeat 2 times
D|--12----12--------------12------12--|
A|------------------------------------|
E|------------------------------------|
Interlude:

e|---------------------|--------------------------|--------------------|
B|---------------------|--------------------------|--------------------|
G|-----9-7-X-6-7-------|----------------7------12-|----9-7-X-6-7-------|
D|---------------X-X-5-|--X-X-7-7-5---9---9/11----|--------------------|
A|--7------------------|------------7-------------|--7-----------X-X-3-|
E|---------------------|--------------------------|--------------------|

e|----------------------|-----------------|------------------|
B|----------------------|--------------12-|------------------|
G|----------7-X-6-------|----9-7-X-6-7-12-|----12/13---------|
D|--------6-------7-5---|-----------------|----11/12---7\6/7-|
A|--X-X-5-------------5-|--7--------------|------------------|
E|----------------------|-----------------|--0-------0-9\8/9-|

e|-------------------|--------------------------------|-----------------|
B|-------------------|--------------------------------|-----------------|
G|----9-7-X-6-7------|--12--X-X-12--X-X-11--X-X-12-12-|-----------------|
D|-------------------|--12--X-X-12--X-X-11--X-X-12-12-|--13-13-13-13-13-|
A|--7-----------X-10-|--10--X-X-10--X-X--9--X-X-10-10-|--11-11-11-11-11-|
E|-------------------|--------------------------------|-----------------|

e|--4/5--5--5--5--5--5--5--|--5/7--7--7--7--7--7--|
B|-------0--0--0--0--0--0--|--0----0--0--0--0--0--|
G|-------9--9--9--9--9--9--|--9----9--9--9--9--9--|
D|--6/7--7--7--7--7--7--7--|--7/9--9--9--9--9--9--|
A|-------------------------|----------------------|
E|-------------------------|----------------------|
Outro:

e|--15----|
B|-----14-|
G|--------|
D|--------|
A|--------|
E|--------|