rhcpfrance RhcpFrance
Prochain concert dans :
Flash info :
Sélection du moment :
Tablature

guitare Easily



EASILY

from "Californication"
Music by KiedisFleaFruscianteSmith
Warner Bros. Music 1999
BUY THE TAB BOOK!>

intro
A D F C A
|---------------------------------------------------|
|---------------------------------------------------|
|-------------------7-----------------------5-------|
|-------7-----------7----------3------------5---7---|
|-------7-----------5----------3------------3---7---|
|-------5----------------------1----------------5---|

A D
|---------------------------------------------------|
|---------------------------------------------------|
|---------------------------------------------------|
|-------------------------7-7-7-7-7-7-7-7-7---------|
|---7--7--7--7--7-7-7-7---7-7-7-7-7-7-7-7-7---------|
|---7--7--7--7--7-7-7-7---5-5-5-5-5-5-5-5-5---------|
|---5--5--5--5--5-5-5-5-----------------------------|


F C A
|---------------------------|
|---------------------------|
|------------5--------------|
|--3--3--3-3-5-7--7--7-7-7--|
|--3--3--3-3-3-7--7--7-7-7--|
|--1--1--1-1---5--5--5-5-5--|



chorus: C G F

|-----------------------------------------------|
|------1-----------3--------1-------------------|
|------0-----------4--------2-------------------|
|------2-----------5--------3-------------------|
|------3----------------------------------------|
|-----------------------------------------------|



C G F
The story of a woman on the morning of a war
C G F
remind me if you will exactly what we're fighting for

A G F
|-----------------------------------------------|
|------5-----------3--------1-------------------|
|------6-----------4--------2-------------------|
|------7-----------5--------3-------------------|
|-----------------------------------------------|
|-----------------------------------------------|

A G F
calling calling for something in the air
calling calling i know you must be there


solo 1:

|-----------------------------------------------|
|-----17---17-15-17-19/17--13----17-13----------|
|-----------------------------------------------|
|-----------------------------------------------|
|-----------------------------------------------|
|-----------------------------------------------|

|-----------------------------------------------|
|-----13--13-12-13-15-13--17--17-12-13----------|
|-----------------------------------------------|
|-----------------------------------------------|
|-----------------------------------------------|
|-----------------------------------------------|


solo 2:

|-----15--13-12-13-12-------12------------------|
|---------------------13-12----13---------------|
|-----------------------------------------------|
|-----------------------------------------------|
|-----------------------------------------------|
|-----------------------------------------------|

|-----17--15-12-15-12----15--12-----------------|
|---------------------15------------------------|
|-----------------------------------------------|
|-----------------------------------------------|
|-----------------------------------------------|
|-----------------------------------------------|



Enjoy,
=coco=