rhcpfrance RhcpFrance
Aucun concert pour le moment
Flash info :
Sélection du moment :
Tablature

guitare Don t Forget Me



"Don't Forget Me"
---------------------------

from "By The Way"
Music by KiedisFleaFruscianteSmith
Warner Bros. Music 2002
BUY THE TAB BOOK!>


***************************************************
***************************************************
version 1

Transcribed by: Chris Valente
Email: RedHotMetallica@aol.com

hot stuff! pick the whole thing up and don in 16th notes with digital delay
set to do triplets. Have fun!
Verse

-000000000000000000000000000000000000000000000000000000000000000000000000000--
------------------------------------------------------------------------------
------------------------------------------------------------------------------
------------------------------------------------------------------------------
------------------------------------------------------------------------------
------------------------------------------------------------------------------
PM whole line

-5h7p5-55555555555555-----8p5---8p5---8p5---8p5-------------------------------
------------------------------5-----5-----5------5----------------------------
------------------------------------------------------------------------------
------------------------------------------------------------------------------
------------------------------------------------------------------------------
------------------------------------------------------------------------------
do above twice then repeat from beginning

--00000000000000000000000000000000000000000121212121212121212121212121212-----
------------------------------------------------------------------------------
------------------------------------------------------------------------------
------------------------------------------------------------------------------
------------------------------------------------------------------------------
------------------------------------------------------------------------------
..ill be there, tell me when you wanna go OOOOOOOOOOOOOOOOOOOOOOOOOO

-17171717171717171717171717171717171717171717171717171717171717---------------
-17171717171717171717171717171717171717171717171717171717171717---------------
------------------------------------------------------------------------------
------------------------------------------------------------------------------
------------------------------------------------------------------------------
------------------------------------------------------------------------------
Don't Forget me I can't hide it........

-12------------------1212121215151515-12--------------------------------------
-------------------------------------------------------8/10/8---10-8----------
----12-1414141414------------------------121414141414---------9---------------
------------------------------------------------------------------------------
------------------------------------------------------------------------------
------------------------------------------------------------------------------
Solo with Wah Then back to beginning

--5-3----5-3------5-3---5-3--------3/5/3---3/5/3-----3/5/3---3/5/3------------
------5------5-5------5---------5--------5-------5-5-------5---------5--------
------------------------------------------------------------------------------
------------------------------------------------------------------------------
------------------------------------------------------------------------------
------------------------------------------------------------------------------
2nd Solo digital delay off repeat a bunch of times & then verse till outro




***************************************************
***************************************************
version 2

Tabbed by: Colin Boylan (HairyJapeneseGoldfish)
Date: 3/7/02
Email: colin_boylan@hotmail.com

Key>>>
p = pull off
h = hammer on
b = bend
<<>>>>
This is a cool little song but sounds very like otherside
so the chords were pretty obvious. heard this on their
website today.

MAIN RIFF : whole way through i think
A F C G
e|--------------------------------------------------
b|--------------------------------------------------
g|------------------------5-x-x-x-x-----------------
d|--7-x-x-x-x--3-x-x-x-x--5-x-x-x-x--5-x-x-x-x------
a|--7-x-x-x-x--3-x-x-x-x--3-x-x-x-x--5-x-x-x-x------
E|--5-x-x-x-x--1-x-x-x-x-------------3-x-x-x-x-----

THIS COMES IN : semi palm mute
e|--------------------------------------------------
b|--------------------------------------------------
g|--9-9-9-9-9-9-9-9-9-9--- etc ---------------------
d|--------------------------------------------------
a|--------------------------------------------------
E|--------------------------------------------------

THEN THIS : Try and strum it like john does really fast
. delay possibly here i think X2
e|-------------------------------------------etc----
b|--10-h-13-10-10-h-13--10-10-h-13------------------
g|--9-------9--9--------9---9----------------------
d|--------------------------------------------------
a|--------------------------------------------------
E|--------------------------------------------------

e|--8-p-5----8-p-5----8-p-5----8-p-5---------------
b|--------5---------5--------5---------5-----etc---
g|--------------------------------------------------
d|--------------------------------------------------
a|--------------------------------------------------
E|--------------------------------------------------

CHORUS :
e|--------------------------------------------------
b|--------------------------------------------------
g|---------------5-5--------------------------------
d|--7-7---3-3----5-5------5--5----------------------
a|--7-7---3-3----3-3------5--5----------------------
E|--5-5---1-1-------------3--3----------------------

FILL OVER CHORUS :
e|--17--17--17--17--17--17-17--17----ETC------------
b|--------------------------------------------------
g|--------------------------------------------------
d|--------------------------------------------------
a|--------------------------------------------------
E|--------------------------------------------------

WIERD SOLO BIT : w/ some delay effect
e|--12-12-12---3-3-3-3-3------5-5-5-5-5-5-----------
b|--------------------------------------------------
g|--------------------------------------------------
d|--------------------------------------------------
a|--------------------------------------------------
E|--------------------------------------------------

e|--12-12-12---15-15---12-12-12----3-3-3-3---5-5-5-5-
b|--------------------------------------------------
g|--------------------------------------------------
d|--------------------------------------------------
a|--------------------------------------------------
E|--------------------------------------------------


e|--5b-3------5---3---------------------------------
b|---------5---------5------------------------------
g|--------------------------------------------------
d|--------------------------------------------------
a|--------------------------------------------------
E|--------------------------------------------------

OUTRO :
e|-----5--3-----5---3-------------------------------
b|--5--------5---------5--5-------------------------
g|--------------------------------------------------
d|--------------------------------------------------
a|--------------------------------------------------
E|--------------------------------------------------

Back into verse chords Thats it




***************************************************
***************************************************
version 3

Tabbed by Runar B. Mæland


D = Downstroke Upstroke x = "Muffle"

Chords: (E A D G B e)
John plays these chords:
A5 5 7 x x x x
F5 1 3 x x x x
C5 x 3 5 x x x
G5 3 5 x x x x
You can also play
Am x 0 2 2 1 0
F 1 3 3 2 1 1
C x 3 2 0 1 0
G 3 2 0 0 0 1

Strumming: (Play all strings involved)
X |-D----x-x-x-x-x-|

The chordline is A5 F5 C5 G5 through the whole song.
Enjoy!

- Runar
runar_go@down.tc




***************************************************
***************************************************
version 4

Tabbed (tried) by Rondo


Verse with delay
e-(0)-mute the empty string and play quick-5757575757575757-850850850850850850-|
H------------------------------------------------------------------------------|
G------------------------------------------------------------------------------|
D------------------------------------------------------------------------------|
A------------------------------------------------------------------------------|
E------------------------------------------------------------------------------|

chorus
|-12-play very fast-17-|
|-13----------------17-|
|-14----------------17-|
|----------------------|
|----------------------|
|----------------------|

Well, then there is an interlude solo and then the easy outro solo which goes
e-5-3-0-|

This isn' 100% correct obviously!
Cheers,
RONDO

***************************************************
***************************************************
version 3

Tabbed by little pea

Chords
played by bass or by guitar like this:
E-------------------------------------------------------------------
B-------------------------------------------------------------------
G--2--X--X--X--X----- X--X--X--X --5-- X--X--X--X ------ X--X--X--X-
D--2--X--X--X--X--3-- X--X--X--X --5-- X--X--X--X --5-- X--X--X--X--
A--0--X--X--X--X--3-- X--X--X--X --3-- X--X--X--X --5-- X--X--X--X--
E------X--X--X--X--1-- X--X--X--X ----- X--X--X--X --3-- X--X--X--X-

Verse:
e---X-X-X-X-X-X-X-X-X-X-X-X-X-X-X-X-X-X-X-X-X-X-X-X-----------------
B-------------------------------------------------------------------
G-------------------------------------------------------------------
D-------------------------------------------------------------------
A-------------------------------------------------------------------
E-------------------------------------------------------------------

Bridge:
e---5h7p5h7p5h7p5h7p5h7p5h7p5h7p5h8p5h8p5h8p5h8p5h8p5h8p5h8
B-------------------------------------------------------------------
G-------------------------------------------------------------------
D-------------------------------------------------------------------
A-------------------------------------------------------------------
E-------------------------------------------------------------------

Chorus
E----5----------------17--------------------------------------------
B----5----------------17--------------played fast-------------------
G----5----------------17--------------------------------------------
D-------------------------------------------------------------------
A-------------------------------------------------------------------
E-------------------------------------------------------------------

1st solo played on A
2nd solo like this
e----5--3--0--5--3--0--0--5--3--0--5--3--0--------------------------
repeated 8x

end