rhcpfrance RhcpFrance
Prochain concert dans :
Flash info :
Sélection du moment :
Tablature

guitare I Could Die For You



"I Could Die For You"
---------------------------

from "By The Way"
Music by KiedisFleaFruscianteSmith
Warner Bros. Music 2002
BUY THE TAB BOOK!>

***************************************************
version 1 :

Tabbed by Ilias.
Any corrections are welcomed!


Intro:
e|------------4---------------
B|----------------------------
G|----6---6-----6--6--6-------
D|----7---7-----7--7--7-------
A|----7---7-----7--7--7-------
E|----5---5-----5--5--4--2----


Verse:

Something... ...The cards...
Dont want... ...Somebody else...
e|---2---------------7----------
B|---2---------------5----------
G|---2---------------6----------
D|---4---------------6----------
A|---4--------------------------
E|---2--------------------------


This is... ...and this...
She smiles... ...Do my time...
e|--------------------12--------
B|---14---------------12--------
G|---14---------------11--------
D|---14---------------12--------
A|---12-------------------------
E|------------------------------

Chorus:
...I could die for you
e|---5----------------2----2----
B|---5--------9-------3----2----
G|---6--------9-------4----2----
D|---7--------9-------4----4----
A|---7--------7-------2----4----
E|---5---------------------2----

...Oh this life I...Choose
e|---5------------------7-7--7-7--7---------
B|---5--------9---------7-10-7-10-7---------
G|---6--------9---------7-7--7-7--7---7h9p7- Then back to intro!
D|---7--------9---------9-9--9-9--9---------
A|---7--------7-----------------------------
E|---5--------------------------------------
or:
--9--7--5--2--
--9--7--5--2--
--------------
--------------
--------------
--------------

Bridge 1:

You can see... ..Only...
e|----14-------------------16--
B|----14-------------14----14--
G|----13-------------14----14--
D|----14-------------14----14--
A|-------------------12----12--
E|-----------------------------

Come along and go... ...Along with me...
e|----9--12--9--12--9-----------5------
B|----9--9---9--9---9-----------5------
G|----9--9---9--9---9-----------6------
D|----11-11--11-11--11--------- 7------
A|------------------------------7------
E|------------------------------5------

twice then back to chorus:

Bridge 2:

Come on then...
e|----7--x--7------9--x--9-----
B|----6--x--6------9--x--9-----
G|----7--x--7------9--x--9-----
D|-----------------------------
A|-----------------------------
E|-----------------------------


***************************************************
***************************************************
version 2 :

tab by Kav


Intro - A
F#m C#
Something inside the cards I know is right
Don't wanna live somebody else's life.

A
This is what I wanna be,

Bm
And this is what I give to you because I get it free.

A Bm
She smiles while I do my time.

A E B F#m
I could die for you.
Oh this life I choose.

Verse
C# A
You can see that it's only everwhere,
I take it on and then I find a way to share.

E / C# (RIFF) D
Come along and go,
Along with me.
Wander with me, yo
It's all for free.

I could die for you.
what you wanna do?
Oh this life I choose.
Repeat

Come on then and tell me where you wanna go,
What it means to me to be with you alone.
Close the door and no one has to know how we are.

Come along and go,
Along with me.
Wander with me, yo
It's all for free.

I could die for you,
what you wanna do?
Oh this life I choose.
Make me wanna say...