rhcpfrance RhcpFrance
Prochain concert dans :
Flash info :
Sélection du moment :
Tablature

guitare Can't Stop



"Can't Stop"
---------------------------

from "By The Way"
Music by KiedisFleaFruscianteSmith
Warner Bros. Music 2002
BUY THE TAB BOOK!>


***********************************************************
version 1

Tabbed by Runar B. Mæland

^ = Slight bend and release |:--:| = Repeat bars
b = bend a whole step up (two frets)

Intro:
e |:--------------------------:|
B |:--------------------------:|
G |:--------------------------:|
D |:--------------------------:|
A |:-5-7^-5-7^-5-7^-5-7^-5-7--:|
E |:--------------------------:|
The last two times this is played, there's no bends.

Verse:
(Em) (Am)
e|:----------------------------------------------------------|
B|:--------5------------5--------------5------------5--------|
G|:-----7------------7--------------7------------7-----------|
D|:----------------------------------------------------------|
A|:-7---------7-7-7--------7-7-7-5--------5-5-5----------5-5-|
E|:----------------------------------------------------5-----|
(B) (C)
e|----------------------------------------------------------:|
B|--------5------------5--------------5------------5--------:|
G|-----7------------7--------------7------------7-----------:|
D|----------------------------------------------------------:|
A|----------------------------------------------------------:|
E|-7---------7-7-7--------7-7-7-8--------8-8-8--------8-8-8-:|

Right before the chorus comes, this is played:
e |-9-9-9-9-9-9-9-9-9-9-9-9-9-9-9-9-|
B |-7-7-7-7-7-7-7-7-7-7-7-7-7-7-7-7-|
G |---------------------------------|
D |---------------------------------|
A |---------------------------------|
E |---------------------------------|

Chorus:
| G | D | Bm | C | x 3
| G | D | Bm C |

Verse again
Chorus again
Bridge: (don't let notes ring)
e |--7--7--7--7--5--5--5--7--2--2--7--5--3--3--3--5-|
B |--5--5--5--5--3--3--3--5--0--0--5--3--1--1--1--3-|
G |-------------------------------------------------|
D |-------------------------------------------------|
A |-------------------------------------------------|
E |-------------------------------------------------|

e |--7--7--7--10--5--5--5--7--2--2--2--2--3--3--3--5-|
B |--5--5--5--8---3--3--3--5--0--0--0--0--1--1--1--3-|
G |--------------------------------------------------|
D |--------------------------------------------------|
A |--------------------------------------------------|
E |--------------------------------------------------|
Repeat the two last bars, with some variations.


Solo:
e |------------------------------------|
B |-15b----r15----15/--12-----12-------|
G |-------------------------------12---|
D |------------------------------------|
A |------------------------------------|
E |------------------------------------| slide
| Vocals come in here | slowly
e |--------14-------------------------------------|
B |--15b-------15----15b--12--12b---10------------|
G |-------------------------------------12-\---9--|
D |-----------------------------------------------|
A |-----------------------------------------------|
E |-----------------------------------------------|

e |:------------------------------------:|
B |:-15b----r15----15/--12-----12-------:|
G |:-------------------------------12---:|
D |:------------------------------------:|
A |:------------------------------------:|
E |:------------------------------------:|

Verse
Against the end of that verse, there is a riff somewhat like this:
e |-----------------------------------------|
B |-----------------------------------------|
G |-9-9-9b-r9-9-9-9b-r9-9-9-9b-r9-9-9-9b-r9-|
D |-----------------------------------------|
A |-----------------------------------------|
E |-----------------------------------------|

That's it! Enjoy.

- Runar
runar_go@down.tc



***********************************************************
***********************************************************
version 2

Tab by Rondo

This is the way John Frusciante plays it!!
I saw him play it that way!

The Intro is correct the way Runar did it.

Verse
e-------------------------------------------------------------------|
H-------------------------------------------------------------------|
G---7-9-----7-9------7-9------7-9--------7-9----7-9-----7-9-----7-9-|
D-------------------------------------------------------------------|
A-7-----777----777--------------------------------------------------|
E------------------10---101010----1010107----777----7778-----888----|

Before the Chorus the guitar plays these strings:
e-7-|
H-8-|
G-9-|


And I think that the chorus is more of a mixture between an E and a G.

E/G - D - Bm - c
A "G" sounds alright too.




***********************************************************
***********************************************************
version 3

Transcribed by: Chris Valente
Email: RedHotMetallica@aol.com

Hot song! Remember to variate a little on the solo, and have fun!
Remember to play hard as hell!
Intro

------------------------------------------------------------------------------
------------------------------------------------------------------------------
------------------------------------------------------------------------------
------------------------------------------------------------------------------
-5-7^--5-7^--5-7^--5-7^--5-7^-------------------------------------------------
------------------------------------------------------------------------------
Verse

------------------------------------------------------------------------------
------------------------------------------------------------------------------
--------7--9--------7-9-------7-9-------7-9--------7-9----7-9-----7-9-----7-9-
------------------------------------------------------------------------------
---7----------777-------777---------------------------------------------------
---------------------------10----101010----1010107-----777----7778-----888----
Chorus G / D / Bm / C

---------|--10---|---7---|---8------------------------------------------------
---12----|--10---|---7---|---8------------------------------------------------
---12----|--11---|---7---|---9------------------------------------------------
---12----|--12---|---9---|---10-----------------------------------------------
---10----|--12---|---9---|---10-----------------------------------------------
---------|--10---|---7---|---8------------------------------------------------
Bridge... SKA!

--7--|--5--|--2--|--3---------------------------------------------------------
--8--|--7--|--3--|--5---------------------------------------------------------
--9--|--7--|--4--|--5---------------------------------------------------------
--9--|--7--|--4--|--5---------------------------------------------------------
-----|-----|-----|------------------------------------------------------------
-----|-----|-----|------------------------------------------------------------
Solo (if that's what you want to call it)

--12--/12--------------------------------|-12--/14----------------------------
----------15---15-12--12-----------------|---------15-/17---12---12-----------
-------------------------12--12-12-12-12-|--------------------------12--------
-----------------------------------------|------------------------------------
-----------------------------------------|------------------------------------
-----------------------------------------|------------------------------------

***********************************************************
***********************************************************
version 4 :

TABBER/OLI SMITH

INTRO

E-------------------------------------------------------
B-------------------------------------------------------
G-------------------------------------------------------
D-------------------------------------------------------
A----5-7-5-7-5-7-5-7-5-7-5-7-5-7-5-7-5-7----------------
E-------------------------------------------------------
verse
E-------------------------------------------------------
B------5-----5-------5------5----5-----5----5-----5-----
G----7-----7-------7------7----7-----7----7-----7-------
D-------------------------------------------------------
A--7----77-------5----55--------------------------------
E-------------------------------7----77----8---88-------

chorus
E-------------------------------------------------------
B-----E--D---------------D----F#--G---------------------
G----9---7--F#--G---------A11--12-----------------------
D----9---7--9--10-----12--711--12-----------------------
A----7---5--9--10-----12--7-9---10----------------------
E------------7--8-------10--5---------------------------


BRIDGE
E------12----10--7----8----------12-------10----7---8---
B------12----10--7----8-------12-------10-----7---8-----
G------12----11--7----9---12-------11-------7----9------
D-------------------------------------------------------
A-------------------------------------------------------
E-------------------------------------------------------

Solo
E-----------------------------13------------------------
B---17-15-15----------17-----15-17------15--------------
G----------------16-17------------------16-------17-----
D-------------------------------------------------------
A-------------------------------------------------------
E-------------------------------------------------------