rhcpfrance RhcpFrance
Prochain concert dans :
Flash info :
Sélection du moment :
Tablature

guitare Hey



Hey Tab by Red Hot Chili Peppers, www.Ultimate-Guitar.Com

Hey

Red Hot Chili Peppers
John - Guitar



E||-------|-------|-------|-------|-------|-------|-------|
B||-------|-------|-------|-------|-------|-------|-------|
G||-------|-------|-------|-------|-------|-------|-------|
D||-------|-------|-------|-------|-------|-------|-------|
A||-------|-------|-------|-------|-------|-------|-------|
E||-------|-------|-------|-------|-------|-------|-------|


Q Q E E E E Q Q E E E E
--------------------------|--------------------------------|
---------------------(4)--|--L---------(4)--(4)--(3)--(4)--|
----------------------5---|--L----------5----5----3----5---|
----------------------5---|--L----------5----5----5----5---|
--------------------------|--------------------------------|
----------------------3---|--------------------------------|


E E E E E E E E E E E E E Q E
----------------------------------------|--------------------------------3--|
-----(3)--(4)--(3)--(4)--(4)--(3)--(4)--|-----(3)--(4)--(3)--(4)--(4)----4--|
------3----5----3----5----5----3----5---|------3----5----3----5----5-----5--|
------5----5----5----5----5----5----5---|------5----5----5----5----5--------|
----------------------------------------|-----------------------------------|
----------------------------------------|-----------------------------------|


E E E E E E E E Q Q E E E E
------------------------------|--------------------------------|
-----4-----3-----(3)-------4--|--L---------(4)--(4)--(3)--(4)--|
-----5-----3------3------3g5--|--L----------5----5----3----5---|
------------------5------3g5--|--L----------5----5----5----5---|
------------------------------|--------------------------------|
------------------------------|--------------------------------|


E E E E E E E E E E E E E Q E
----------------------------------------|--------------------------------3--|
-----(3)--(4)--(3)--(4)--(4)--(3)--(4)--|-----(3)--(4)--(3)--(4)--(4)----4--|
------3----5----3----5----5----3----5---|------3----5----3----5----5-----5--|
------5----5----5----5----5----5----5---|------5----5----5----5----5--------|
----------------------------------------|-----------------------------------|
----------------------------------------|-----------------------------------|


E E E E E E E E H H
-----4-----3------------------|--------------------|
-----x-----4-----(3)-------4--|--L-----------------|
-----5-----5------3------3g5--|--L-----------------|
------------------5------3g5--|--L-----------------|
------------------------------|--------------------|
------------------------------|--------------------|


H E E E E E E E E E Q E
-------------------------------|--------------------------------3--|
-----------(4)--(4)--(3)--(4)--|-----(3)--(4)--(3)--(4)--(4)----4--|
------------5----5----3----5---|------3----5----3----5----5-----5--|
------------5----5----5----5---|------5----5----5----5----5--------|
-------------------------------|-----------------------------------|
-------------------------------|-----------------------------------|


E E E E E E E E H H
------------------------------|--------------------|
-----4-----3-----(3)-------4--|--L-----------------|
-----5-----3------3------3g5--|--L-----------------|
------------------5--------5--|--L-----------------|
------------------------------|--------------------|
------------------------------|--------------------|


H E E E E E E E E E Q E
-------------------------------|--------------------------------3--|
-----------(4)--(4)--(3)--(4)--|-----(3)--(4)--(3)--(4)--(4)----4--|
------------5----5----3----5---|------3----5----3----5----5-----5--|
------------5----5----5----5---|------5----5----5----5----5--------|
-------------------------------|-----------------------------------|
-------------------------------|-----------------------------------|


E E E E E E E E Q Q E E E E
-----4-----3------------------|--------------------------------|
-----x-----4-----(3)-------4--|--L---------(4)--(4)--(3)--(4)--|
-----5-----5------3------3g5--|--L----------5----5----3----5---|
------------------5--------5--|--L----------5----5----5----5---|
------------------------------|--------------------------------|
------------------------------|--------------------------------|


E E E E E E E E E E E E E Q E
----------------------------------------|--------------------------------3--|
-----(3)--(4)--(3)--(4)--(4)--(3)--(4)--|-----(3)--(4)--(3)--(4)--(4)----4--|
------3----5----3----5----5----3----5---|------3----5----3----5----5-----5--|
------5----5----5----5----5----5----5---|------5----5----5----5----5--------|
----------------------------------------|-----------------------------------|
----------------------------------------|-----------------------------------|


E E E E E E E E Q Q E E E E
------------------------------|--------------------------------|
-----4-----3-----(3)-------4--|--L---------(4)--(4)--(3)--(4)--|
-----5-----3------3------3g5--|--L----------5----5----3----5---|
------------------5--------5--|--L----------5----5----5----5---|
------------------------------|--------------------------------|
------------------------------|--------------------------------|


E E E E E E E E E E E E E Q E
----------------------------------------|--------------------------------3--|
-----(3)--(4)--(3)--(4)--(4)--(3)--(4)--|-----(3)--(4)--(3)--(4)--(4)----4--|
------3----5----3----5----5----3----5---|------3----5----3----5----5-----5--|
------5----5----5----5----5----5----5---|------5----5----5----5----5--------|
----------------------------------------|-----------------------------------|
----------------------------------------|-----------------------------------|


E E E E E E E E Q Q E E E E
-----4-----3------------------|--------------------------------|
-----x-----4-----(3)-------4--|--L---------(4)--(4)--(3)--(4)--|
-----5-----5------3------3g5--|--L----------5----5----3----5---|
------------------5--------5--|--L----------5----5----5----5---|
------------------------------|--------------------------------|
------------------------------|--------------------------------|


E E E E E E E E E E E E E Q E
----------------------------------------|--------------------------------3--|
-----(3)--(4)--(3)--(4)--(4)--(3)--(4)--|-----(3)--(4)--(3)--(4)--(4)----4--|
------3----5----3----5----5----3----5---|------3----5----3----5----5-----5--|
------5----5----5----5----5----5----5---|------5----5----5----5----5--------|
----------------------------------------|-----------------------------------|
----------------------------------------|-----------------------------------|


E E E E E E E E Q Q E E E E
------------------------------|--------------------------------|
-----4-----3-----(3)-------4--|--L---------(4)--(4)--(3)--(4)--|
-----5-----3------3------3g5--|--L----------5----5----3----5---|
------------------5--------5--|--L----------5----5----5----5---|
------------------------------|--------------------------------|
------------------------------|--------------------------------|


E E E E E E E E E E E E E Q E
----------------------------------------|--------------------------------3--|
-----(3)--(4)--(3)--(4)--(4)--(3)--(4)--|-----(3)--(4)--(3)--(4)--(4)----4--|
------3----5----3----5----5----3----5---|------3----5----3----5----5-----5--|
------5----5----5----5----5----5----5---|------5----5----5----5----5--------|
----------------------------------------|-----------------------------------|
----------------------------------------|-----------------------------------|


E E E E E E Q H E Q E
-----4-----6-----4--3----|-----------------------------|
-----x-----4-----x--4----|-----------------------------|
-----5-----5-----3--5----|--8~-----------10b----10pbr--|
-----------------5--5----|-----------------------------|
-------------------------|-----------------------------|
-------------------------|-----------------------------|


H E Q E H E Q E
--------------------------|--------------------------|
---------------11-----8~--|--L-----------------------|
--L~-----------------10b--|--------------10br----8~--|
--------------------------|--------------------------|
--------------------------|--------------------------|
--------------------------|--------------------------|


Q Q E E E E H E Q E
----------------------------|-----------------------------|
----------------------------|-----------------------------|
--L----10br----L--8--7--8~--|--L~-----------10b----10pbr--|
----------------------------|-----------------------------|
----------------------------|-----------------------------|
----------------------------|-----------------------------|


H E E E S S H E Q E
-------------------------------|--------------------------|
---------------11--8~--11S-13~-|--L-----------------------|
--L~---------------------------|--------------10b~----8~--|
-------------------------------|--------------------------|
-------------------------------|--------------------------|
-------------------------------|--------------------------|


Q Q E Q E H E Q E
--------------11---------------|-----------------------------|
-------------------------------|-----------------------------|
--L----10b--------10pbr----8~--|--L~-----------10b----10pbr--|
-------------------------------|-----------------------------|
-------------------------------|-----------------------------|
-------------------------------|-----------------------------|


H E Q E H E Q E
--------------------------|--------------------------|
---------------11-----8~--|--L-----------------------|
--L~-----------------10b--|--------------10br----8~--|
--------------------------|--------------------------|
--------------------------|--------------------------|
--------------------------|--------------------------|


Q Q E E E E H E Q E
----------------------------|-----------------------------|
----------------------------|-----------------------------|
--L----10br----L--8--7--8~--|--L~-----------10b----10pbr--|
----------------------------|-----------------------------|
----------------------------|-----------------------------|
----------------------------|-----------------------------|


H E E E S S H E Q E
---------------------------|-----------------------|
---------------------------|---L-------------------|
--L~-----------8-----------|-----------------------|
------------------8--8S-10-|---L-----------8-------|
---------------------------|--------------------8--|
---------------------------|-----------------------|


E E E E E E Q H E E E E
----------------------------|--------------------------------|
----------------------------|------------(4)--(4)--(3)--(4)--|
--L-------------8-----------|-------------5----5----3----5---|
----------------------------|-------------5----5----5----5---|
--L--6--8S--10-----10--8----|--6~----------------------------|
----------------------------|--------------------------------|


E E E E E E E E E E E E E Q E
----------------------------------------|--------------------------------3--|
-----(3)--(4)--(3)--(4)--(4)--(3)--(4)--|-----(3)--(4)--(3)--(4)--(4)----4--|
------3----5----3----5----5----3----5---|------3----5----3----5----5-----5--|
------5----5----5----5----5----5----5---|------5----5----5----5----5--------|
----------------------------------------|-----------------------------------|
----------------------------------------|-----------------------------------|


E E E E E E E E Q Q E E E E
------------------------------|--------------------------------|
-----4-----3-----(3)-------4--|--L---------(4)--(4)--(3)--(4)--|
-----5-----3------3------3g5--|--L----------5----5----3----5---|
------------------5--------5--|--L----------5----5----5----5---|
------------------------------|--------------------------------|
------------------------------|--------------------------------|


E E E E E E E E E E E E E Q E
----------------------------------------|--------------------------------3--|
-----(3)--(4)--(3)--(4)--(4)--(3)--(4)--|-----(3)--(4)--(3)--(4)--(4)----4--|
------3----5----3----5----5----3----5---|------3----5----3----5----5-----5--|
------5----5----5----5----5----5----5---|------5----5----5----5----5--------|
----------------------------------------|-----------------------------------|
----------------------------------------|-----------------------------------|


E E E E E E E E H H
-----4-----3------------------|--------------------|
-----x-----4-----(3)-------4--|--L-----------------|
-----5-----5------3------3g5--|--L-----------------|
------------------5--------5--|--L-----------------|
------------------------------|--------------------|
------------------------------|--------------------|


H E E E E E E E E E Q E
-------------------------------|--------------------------------3--|
-----------(4)--(4)--(3)--(4)--|-----(3)--(4)--(3)--(4)--(4)----4--|
------------5----5----3----5---|------3----5----3----5----5-----5--|
------------5----5----5----5---|------5----5----5----5----5--------|
-------------------------------|-----------------------------------|
-------------------------------|-----------------------------------|


E E E E E E E E H H
------------------------------|--------------------|
-----4-----3-----(3)-------4--|--L-----------------|
-----5-----3------3------3g5--|--L-----------------|
------------------5--------5--|--L-----------------|
------------------------------|--------------------|
------------------------------|--------------------|


H E E E E E E E E E Q E
-------------------------------|--------------------------------3--|
-----------(4)--(4)--(3)--(4)--|-----(3)--(4)--(3)--(4)--(4)----4--|
------------5----5----3----5---|------3----5----3----5----5-----5--|
------------5----5----5----5---|------5----5----5----5----5--------|
-------------------------------|-----------------------------------|
-------------------------------|-----------------------------------|


E E E E E E E E Q Q E E E E
-----4-----3------------------|--------------------------------|
-----x-----4-----(3)-------4--|--L---------(4)--(4)--(3)--(4)--|
-----5-----5------3------3g5--|--L----------5----5----3----5---|
------------------5--------5--|--L----------5----5----5----5---|
------------------------------|--------------------------------|
------------------------------|--------------------------------|


E E E E E E E E E E E E E Q E
----------------------------------------|--------------------------------3--|
-----(3)--(4)--(3)--(4)--(4)--(3)--(4)--|-----(3)--(4)--(3)--(4)--(4)----4--|
------3----5----3----5----5----3----5---|------3----5----3----5----5-----5--|
------5----5----5----5----5----5----5---|------5----5----5----5----5--------|
----------------------------------------|-----------------------------------|
----------------------------------------|-----------------------------------|


E E E E E E E E Q Q E E E E
------------------------------|--------------------------------|
-----4-----3-----(3)-------4--|--L---------(4)--(4)--(3)--(4)--|
-----5-----3------3------3g5--|--L----------5----5----3----5---|
------------------5--------5--|--L----------5----5----5----5---|
------------------------------|--------------------------------|
------------------------------|--------------------------------|


E E E E E E E E E E E E E Q E
----------------------------------------|--------------------------------3--|
-----(3)--(4)--(3)--(4)--(4)--(3)--(4)--|-----(3)--(4)--(3)--(4)--(4)----4--|
------3----5----3----5----5----3----5---|------3----5----3----5----5-----5--|
------5----5----5----5----5----5----5---|------5----5----5----5----5--------|
----------------------------------------|-----------------------------------|
----------------------------------------|-----------------------------------|


E E E E E E E E Q Q E E E E
-----4-----3------------------|--------------------------------|
-----x-----4-----(3)-------4--|--L---------(4)--(4)--(3)--(4)--|
-----5-----5------3------3g5--|--L----------5----5----3----5---|
------------------5--------5--|--L----------5----5----5----5---|
------------------------------|--------------------------------|
------------------------------|--------------------------------|


E E E E E E E E E E E E E Q E
----------------------------------------|--------------------------------3--|
-----(3)--(4)--(3)--(4)--(4)--(3)--(4)--|-----(3)--(4)--(3)--(4)--(4)----4--|
------3----5----3----5----5----3----5---|------3----5----3----5----5-----5--|
------5----5----5----5----5----5----5---|------5----5----5----5----5--------|
----------------------------------------|-----------------------------------|
----------------------------------------|-----------------------------------|


E E E E E E E E Q Q E E E E
------------------------------|--------------------------------|
-----4-----3-----(3)-------4--|--L---------(4)--(4)--(3)--(4)--|
-----5-----3------3------3g5--|--L----------5----5----3----5---|
------------------5--------5--|--L----------5----5----5----5---|
------------------------------|--------------------------------|
------------------------------|--------------------------------|


E E E E E E E E E E E E E Q E
----------------------------------------|--------------------------------3--|
-----(3)--(4)--(3)--(4)--(4)--(3)--(4)--|-----(3)--(4)--(3)--(4)--(4)----4--|
------3----5----3----5----5----3----5---|------3----5----3----5----5-----5--|
------5----5----5----5----5----5----5---|------5----5----5----5----5--------|
----------------------------------------|-----------------------------------|
----------------------------------------|-----------------------------------|


E E E E E E Q H E Q E
-----4-----6-----4--3----|-----------------------------|
-----x-----4-----x--4----|-----------------------------|
-----5-----5-----3--5----|--8~-----------10b----10pbr--|
-----------------5--5----|-----------------------------|
-------------------------|-----------------------------|
-------------------------|-----------------------------|


H E Q E H E Q E
--------------------------|-------------------------|
---------------11-----8~--|--L----------------------|
--L~-----------------10b--|--L-----------10br----8--|
--------------------------|-------------------------|
--------------------------|-------------------------|
--------------------------|-------------------------|


Q Q E E E E H E Q E
----------------------------|-----------------------------|
--L-------------------------|-----------------------------|
--L----10br----L--8--7--8~--|--L~-----------10b----10pbr--|
--L-------------------------|-----------------------------|
----------------------------|-----------------------------|
----------------------------|-----------------------------|


H E E E S S H E Q E
-------------------------------|--------------------------|
---------------11--8~--11S-13~-|--L-----------------------|
--L~---------------------------|--------------10b~----8~--|
-------------------------------|--------------------------|
-------------------------------|--------------------------|
-------------------------------|--------------------------|


Q Q E Q E H E Q E
--------------11-----------------|----------------------------|
---------------------------------|----------------------------|
--L----10b--------10pbr----8br~--|--L-----------10b----10pbr--|
---------------------------------|----------------------------|
---------------------------------|----------------------------|
---------------------------------|----------------------------|


H E Q E H E Q E
--------------------------|--------------------------|
---------------11-----8~--|--L-----------------------|
--L~-----------------10b--|--L-----------10br----8~--|
--------------------------|--------------------------|
--------------------------|--------------------------|
--------------------------|--------------------------|


S
Q Q E E E E H E Q E
----------------------------|-----------------------------|
----------------------------|-----------------------------|
--L----10br----L--8--7--8~--|--L~-----------10b----10pbr--|
----------------------------|-----------------------------|
----------------------------|-----------------------------|
----------------------------|-----------------------------|


H E E E S S H E E Q
-------------------------------|-------------------------|
---------------11--8~--11S-13~-|--L-----------11---------|
--L~---------------------------|------------------10b----|
-------------------------------|-------------------------|
-------------------------------|-------------------------|
-------------------------------|-------------------------|


E E E S S E S S E E H E Q E
------------------------------------|-----------------------------|
------------------------------------|-----------------------------|
--8--10--10--10p-8-----10p-8-----8--|--L~-----------10b----10pbr--|
-------------------10--------10-----|-----------------------------|
------------------------------------|-----------------------------|
------------------------------------|-----------------------------|


H E Q E H E Q E
--------------------------|--------------------------|
---------------11-----8~--|--L-----------------------|
--L~-----------------10b--|--L-----------10br----8~--|
--------------------------|--------------------------|
--------------------------|--------------------------|
--------------------------|--------------------------|


Q Q E E E E H E Q E
----------------------------|-----------------------------|
----------------------------|-----------------------------|
--L----10br----L--8--7--8~--|--L~-----------10b----10pbr--|
----------------------------|-----------------------------|
----------------------------|-----------------------------|
----------------------------|-----------------------------|


H E E E S S H E E E E
---------------------------|------------------------8--|
---------------------------|---L--------------------8--|
--L~-----------8-----------|------------------------8--|
------------------8--8S-10-|---L-----------10S--8--10--|
---------------------------|---------------------------|
---------------------------|---------------------------|


E E E E E E E E Q E Q Q E
--L---8---8---8---8---8---8---8--|---8----------------------|
--L---8---8---8---8---8---8---8--|---9--------9-------------|
--L---8---8---8---8---8---8---8--|--10-------------10-------|
--L--10--10--10--10--10--10--10--|--10----10----------------|
---------------------------------|--------------------------|
--L------------------------------|--------------------------|


E Q Q Q E Q E Q Q E E Q Q E Q
----------------8-------|-----------------------|------------------------|
--9--11----9------------|--8--------------------|--8--9----11----9--8----|
------------------------|--8-------8------------|------------------------|
------------------------|--8----8-------8-------|------------------------|
------------------------|-----------------------|------------------------|
------------------------|-----------------------|------------------------|


Q E Q Q E E Q Q E Q Q E Q Q E
-----------------------|-----------------------|---------------------------|
--6--------------------|--6--8----9----8--6----|---------------------------|
--6-------6------------|-----------------------|---8----10---8----------8--|
--6----6-------6-------|-----------------------|---8-----8---8----------8--|
-----------------------|-----------------------|--10----10--10---------10--|
-----------------------|-----------------------|---------------------------|


E E E E E E Q Q E Q Q E E Q Q Q E
---------------------------|---8----------------------|----------------8-------|
------------8--------------|---9--------9-------------|--9--11----9------------|
-----10-----8-----10-------|--10-------------10-------|------------------------|
------8-----8------8-------|--10----10----------------|------------------------|
-----10-----------10-------|--------------------------|------------------------|
---------------------------|--------------------------|------------------------|


Q E Q Q E E Q Q E Q Q E Q Q E
-----------------------|------------------------|-----------------------|
--8--------------------|--8--9----11----9--8----|--6--------------------|
--8-------8------------|------------------------|--6-------6----6-------|
--8----8-------8-------|------------------------|--6----6---------------|
-----------------------|------------------------|-----------------------|
-----------------------|------------------------|-----------------------|


E Q Q E Q Q E Q Q E
-----------------------|---------------------------|
--6--8----9----8--6----|---------------------------|
-----------------------|---8----10---8----------8--|
-----------------------|---8-----8---8----------8--|
-----------------------|--10----10--10---------10--|
-----------------------|---------------------------|


E Q Q E E E Q E Q Q E
----------------------------|---------------------------|
----------------------------|---------------------------|
------8-----8-----8---8-----|--10----10--10---------10--|
------8-----8-----8---8-----|---8-----8---8----------8--|
-----10----10----10--10-----|--10----10--10---------10--|
----------------------------|---------------------------|


E Q E E E E E H S E S E E
-------------------------------|---8---------L-8-------------|
-------------------------------|--11b--------L----11-8--11b--|
--L--10----10--10--10--10--10--|-----------------------------|
--L---8-----8---8---8---8---8--|-----------------------------|
--L--10----10--10--10--10--10--|-----------------------------|
-------------------------------|-----------------------------|


E E S E Q E S S S E Q S E S S S E E
-----8-------------------8------|-------------------------------------|
--L-----11-8--11b----11----11-8-|--11b--11----11-----------------11b--|
--------------------------------|-------------------10-12-10-12-------|
--------------------------------|-------------------------------------|
--------------------------------|-------------------------------------|
--------------------------------|-------------------------------------|


Q S S S E E S S E S Q E S E S E S S E
---------------------------------------|-----------------------------------|
--11-------------11b--11---------------|-----------------------------------|
--------12-10-12----------12-10-12~--L-|---L----10br--8----10----10br-8----|
---------------------------------------|-----------------------------------|
---------------------------------------|-----------------------------------|
---------------------------------------|-----------------------------------|


E S E E E E E E S E S E E E E E S E
-----------------------------------|-------------------------------------|
-----------------------------------|-------------------------------------|
--10----10br--8-----10-----10br--8-|--10----10br--8-----10--10br--8-10~--|
-----------------------------------|-------------------------------------|
-----------------------------------|-------------------------------------|
-----------------------------------|-------------------------------------|


S S S S S S S S S E E S S S E E S S Q E E S S
-----------------------------------------|---------------------------------|
-----------------------------------------|---------------------------------|
--8---------10-8---------8b--8~----------|--8b--8~-------------8b--8-------|
----10-8-10------10-8-10---------10-8-10-|----------10-8-10-----------10-8-|
-----------------------------------------|---------------------------------|
-----------------------------------------|---------------------------------|


E Q E S S E E T S T Q E E E S E E S
--------------------------------------|----------------------------------|
-------------------------11--13S-16-L-|--13~----11--13--13--13p-11-------|
------8b----8--8S-10-12---------------|----------------------------------|
--10----------------------------------|----------------------------------|
--------------------------------------|----------------------------------|
--------------------------------------|----------------------------------|


Q E Q E Q Q Q E Q E
--13b----L--13pb----13pb--13pb----|--13pb----13pb----13pb--13pb----13pb--|
----------------------------------|--------------------------------------|
----------------------------------|--------------------------------------|
----------------------------------|--------------------------------------|
----------------------------------|--------------------------------------|
----------------------------------|--------------------------------------|


Q Q S E Q S Q S S E Q Q
--13pb----13pb----13-11--13----15-|--11br--------------------------|
----------------------------------|----------13-11-13--13~---------|
----------------------------------|--------------------------------|
----------------------------------|--------------------------------|
----------------------------------|--------------------------------|
----------------------------------|--------------------------------|


E S S S S S S S E E E S H E E E E
--------------------------------------|--------------------------------|
--------------------------------------|------------(4)--(4)--(3)--(4)--|
--10br--8---10---10---10-8--8--10--8~-|--L~---------5----5----3----5---|
--------------------------------------|-------------5----5----5----5---|
--------------------------------------|--------------------------------|
--------------------------------------|--------------------------------|


E E E E E E E E E E E E E Q E
----------------------------------------|--------------------------------3--|
-----(3)--(4)--(3)--(4)--(4)--(3)--(4)--|-----(3)--(4)--(3)--(4)--(4)----4--|
------3----5----3----5----5----3----5---|------3----5----3----5----5-----5--|
------5----5----5----5----5----5----5---|------5----5----5----5----5--------|
----------------------------------------|-----------------------------------|
----------------------------------------|-----------------------------------|


E E E E E E E E Q Q E E E E
------------------------------|--------------------------------|
-----4-----3-----(3)-------4--|--L---------(4)--(4)--(3)--(4)--|
-----5-----3------3------3g5--|--L----------5----5----3----5---|
------------------5--------5--|--L----------5----5----5----5---|
------------------------------|--------------------------------|
------------------------------|--------------------------------|


E E E E E E E E E E E E E Q E
----------------------------------------|--------------------------------3--|
-----(3)--(4)--(3)--(4)--(4)--(3)--(4)--|-----(3)--(4)--(3)--(4)--(4)----4--|
------3----5----3----5----5----3----5---|------3----5----3----5----5-----5--|
------5----5----5----5----5----5----5---|------5----5----5----5----5--------|
----------------------------------------|-----------------------------------|
----------------------------------------|-----------------------------------|


E E E E E E E E H E E E E
-----4-----3------------------|-----------------------------|
-----x-----4-----(3)-------4--|--L--------(4)--(4)--(3)-----|
-----5-----5------3------3g5--|--L---------5----5----3---5--|
------------------5--------5--|--L---------5----5----5---5--|
------------------------------|-----------------------------|
------------------------------|-----------------------------|


E E E E E E E E E E E E E Q E
----------------------------------------|--------------------------------3--|
-----(3)--(4)--(3)--(4)--(4)--(3)--(4)--|-----(3)--(4)--(3)--(4)--(4)----4--|
------3----5----3----5----5----3----5---|------3----5----3----5----5-----5--|
------5----5----5----5----5----5----5---|------5----5----5----5----5--------|
----------------------------------------|-----------------------------------|
----------------------------------------|-----------------------------------|


E E E E E E E E Q Q E E E E
------------------------------|--------------------------------|
-----4-----3-----(3)-------4--|--L---------(4)--(4)--(3)--(4)--|
-----5-----3------3------3g5--|--L----------5----5----3----5---|
------------------5--------5--|--L----------5----5----5----5---|
------------------------------|--------------------------------|
------------------------------|--------------------------------|


E E E E E E E E E E E E E Q E
----------------------------------------|--------------------------------3--|
-----(3)--(4)--(3)--(4)--(4)--(3)--(4)--|-----(3)--(4)--(3)--(4)--(4)----4--|
------3----5----3----5----5----3----5---|------3----5----3----5----5-----5--|
------5----5----5----5----5----5----5---|------5----5----5----5----5--------|
----------------------------------------|-----------------------------------|
----------------------------------------|-----------------------------------|


E E E E E E E E H E E E E
-----4-----3------------------|-------------------------------|
-----x-----4-----(3)-------4--|--L--------(4)--(4)--(3)--(4)--|
-----5-----5------3------3g5--|--L---------5----5----3----5---|
------------------5--------5--|--L---------5----5----5----5---|
------------------------------|-------------------------------|
------------------------------|-------------------------------|


E E E E E E E E E E E E E Q E
----------------------------------------|--------------------------------3--|
-----(3)--(4)--(3)--(4)--(4)--(3)--(4)--|-----(3)--(4)--(3)--(4)--(4)----4--|
------3----5----3----5----5----3----5---|------3----5----3----5----5-----5--|
------5----5----5----5----5----5----5---|------5----5----5----5----5--------|
----------------------------------------|-----------------------------------|
----------------------------------------|-----------------------------------|


E E E E E E E E Q Q E E E E
------------------------------|--------------------------------|
-----4-----3-----(3)-------4--|--L---------(4)--(4)--(3)--(4)--|
-----5-----3------3------3g5--|--L----------5----5----3----5---|
------------------5--------5--|--L----------5----5----5----5---|
------------------------------|--------------------------------|
------------------------------|--------------------------------|


E E E E E E E E E E E E E Q E
----------------------------------------|--------------------------------3--|
-----(3)--(4)--(3)--(4)--(4)--(3)--(4)--|-----(3)--(4)--(3)--(4)--(4)----4--|
------3----5----3----5----5----3----5---|------3----5----3----5----5-----5--|
------5----5----5----5----5----5----5---|------5----5----5----5----5--------|
----------------------------------------|-----------------------------------|
----------------------------------------|-----------------------------------|


E E E E E E E E W
-----4-----3------------------|-------------------||
-----x-----4-----(3)-------4--|--L----------------||
-----5-----5------3------3g5--|--L----------------||
------------------5--------5--|--L----------------||
------------------------------|-------------------||
------------------------------|-------------------||




Duration Legend
---------------
W - whole
H - half
Q - quarter
E - 8th
S - 16th
T - 32nd
X - 64th
. - note dotted
|-n-| - n-tuplets


Tablature Legend
----------------
L - tied note
x - dead note
g - grace note
(n) - ghost note
> - accentuded note
NH - natural harmonic
AH - artificial harmonic
TH - tapped harmonic
SH - semi harmonic
PH - pitch harmonic
h - hammer on
p - pull off
b - bend
br - bendRelease
pb - preBend
pbr - preBendRelease
brb - bendReleaseBend
\n/ - tremolo bar dip
\n - tremolo bar dive
-/n - tremolo bar Release up
/n\ - tremolo bar inverted dip
/n - tremolo bar return
-\n - tremolo bar Release down
S - shift slide
s - legato slide
/ - slide into from below or out of upwards
\ - slide into from above or out of downwards
~ - vibrato
W - wide vibrato
tr - trill
TP - tremolo picking
T - tapping
S - slap
P - pop
< - fade in
^ - brush up
v - brush down