rhcpfrance RhcpFrance
Aucun concert pour le moment
Flash info :
Sélection du moment :
Tablature

guitare Dark Necessities



Contributor
Difficulty
nivsfa
intermediate

[Intro]

e|---------------------------------|---------------------------------|
B|---------------------------------|---------------------------------|
G|---------------------------------|---------------------------------|
D|---------------------------------|---------------------------------|
A|-3-3-3-3-3-3-3-3-3-3-3-3-3-3-3-3-|-3-3-3-3-3-3-3-3-3-3-3-3-3-3-3-3-|
E|-4-4-4-4-4-4-4-4-4-4-4-4-4-4-4-4-|-1-1-1-1-1-1-1-1-1-1-1-1-1-1-1-1-|

e|---------------------------------|---------------------------------|
B|---------------------------------|---------------------------------|
G|---------------------------------|---------------------------------|
D|---------------------------------|---------------------------------|x4
A|-3-3-3-3-3-3-3-3-3-3-3-3-3-3-3-3-|-3-3-3-3-3-3-3-3-3-3-3-3-3-3-3-3-|
E|---------------------------------|-6-6-6-6-6-6-6-6-6-6-6-6-6-6-6-6-|



e|---------------------------------|---------------------------------|
B|---------------------------------|---------------------------------|
G|---------5---------3------5------|---------5---------3------5------|
D|---------------------------------|---------------------------------|x2
A|-3--x-x-----x-x-x----------------|----------------------------x--1-|
E|----------------------------x--3-|-4--x-x-----x-x-x----------------|


[Verse]
(you can play the second part of the intro in the verse and when the Fm comes just insert it in there)

Cm
Coming out to the light of day
Ab
We got many moons than a deeper place
Cm
So I keep an eye on the shadows smile
Ab
To see what it has to say
Fm
You and I both know
Ab Cm
Everything must go away
Cm
Oh what do you say?
Cm
Spinning off, head is on my heart
Ab
It's like a bit of light and a touch of dark
Cm
You got sneak attacked from the zodiac
Ab
But I see your eyes spark
Fm
Keep the breeze and go
Ab Cm
Blow by blow and go away
Cm
Oh what do you say?

[Chorus]
(like the first part of the intro)

Ab
You don't know my mind
Fm
You don't know my kind
Cm Bb
Dark necessities are part of my design
Ab Fm
Tell the world that I'm falling from the sky
Cm Bb
Dark necessities are part of my design

[Verse]

Cm
Stumble down to the parking lot
Ab
You got no time for the afterthought
Cm
They're like ice cream for an astronaut
Ab
Well that's me looking for weed
Fm
Turn the corner and
Ab Cm
Find the world and show command
Cm
Playing the hand

[Chorus]

Ab
You don't know my mind
Fm
You don't know my kind
Cm Bb
Dark necessities are part of my design
Ab Fm
Tell the world that I'm falling from the sky
Cm Bb
Dark necessities are part of my design

[C-part]
Cm - Bbm - Fm - Abmaj7

Cm
Do you want this love of mine?
Bbm
The darkness helps to sort the shine
Fm Abmaj7
Do you want it, do you want it now?
Cm
Do you want it overtime?
Bbm
The darkness helps to sort the shine
Fm Abmaj7
Do you want it, do you want it now?

[Verse]
Cm
Pick you up like a paperback
Ab
With the track record of a maniac
Cm
So I'm moving in and we unpack
Cm
It's the same as yesterday
Fm
Honey where we roll
Ab Cm
Everything must go away
Cm
Oh what do you say?

[Chorus]

Ab
You don't know my mind
Fm
You don't know my kind
Cm Bb
Dark necessities are part of my design
Ab Fm
Tell the world that I'm falling from the sky
Cm Bb
Dark necessities are part of my design

[Outro]

e|-11-11-10-10-8-8------------------------------|---------------------------------------|
B|-----------------11-11------------------------|---------------------------------------|
G|-----------------------10-12-12-12-8-10-10-10-|---------------------------------------|
D|----------------------------------------------|-8-10-10-10----------------------------|x4
A|----------------------------------------------|------------8-10-10-10-6-8-8-8---------|
E|----------------------------------------------|-------------------------------6-8-8-8-|

e|--------------------------------|
B|--------------------------------|
G|--------------------------------|
D|--------------------------------|
A|-----------------10--8--10-8-10-|
E|-6-8--8--8--8-8-----------------|

Play with this till the end

Enjoy :)

Source:
https://tabs.ultimate-guitar.com/r/red_hot_chili_peppers/dark_necessities_ver2_crd.htm