rhcpfrance RhcpFrance
Aucun concert pour le moment
Flash info :
Sélection du moment :
Tablature

guitare Johnny Kick A Hole In The Sky



=================================
* Johnny Kick a hole in the sky *
=================================

from "Mother's Milk"
Music by KiedisFleaFruscianteSmith EMI 1989.
BUY THE TAB BOOK!>

Tabed by GalOz

Guitar

Intro
E||--14-14-14-14-14-14-14-14-14-14-14-14-14-14-14-14-|
B||--15-15-15-15-15-15-15-15-15-15-15-15-15-15-15-15-|
G||--12-12-12-12-12-12-12-12-12-12-12-12-12-12-12-12-|
D||--14-14-14-14-14-14-14-14-14-14-14-14-14-14-14-14-|
A||--------------------------------------------------|
E||--------------------------------------------------|



|--14-14-14-14-14-14-14-14-14-14-14-14-14-14-14-14-|
|--15-15-15-15-15-15-15-15-15-15-15-15-15-15-15-15-|
|--12-12-12-12-12-12-12-12-12-12-12-12-12-12-12-12-|
|--14-14-14-14-14-14-14-14-14-14-14-14-14-14-14-14-|
|--------------------------------------------------|
|--------------------------------------------------|



|--12b---------------------------|----------------------------------|
|--12b---------------------------|----------------------------------|
|--12b---------------------------|----------------------------------|
|--------2-x-x-2-x-x-x-2-x-x-x-x-|--2-x-x-x-x-x-x-2-x-x-x-2-x-x-x-x-|
|--------------------------------|----------------------------------|
|--------------------------------|----------------------------------|


Verse
|---15-15-15-15-14-14-14-14-14-14-14-14-14-14-14-14-|
|---15-15-15-15-15-15-15-15-15-15-15-15-15-15-15-15-|
|*--12-12-12-12-12-12-12-12-12-12-12-12-12-12-12-12-|
|*--14-14-14-14-14-14-14-14-14-14-14-14-14-14-14-14-|
|---------------------------------------------------|
|---------------------------------------------------|



|--14-14-14-14-14-14-14-14-14-14-14-14-14-14-14-14-|
|--15-15-15-15-15-15-15-15-15-15-15-15-15-15-15-15-|
|--12-12-12-12-12-12-12-12-12-12-12-12-12-12-12-12-|
|--14-14-14-14-14-14-14-14-14-14-14-14-14-14-14-14-|
|--------------------------------------------------|
|--------------------------------------------------|


2x
|--12b---------------------------|-----------------------------------||
|--12b---------------------------|-----------------------------------||
|--12b---------------------------|----------------------------------*||
|--------2-x-x-2-x-x-x-2-x-x-x-x-|--2-x-x-x-x-x-x-2-x-x-x-2-x-x-x-x-*||
|--------------------------------|-----------------------------------||
|--------------------------------|-----------------------------------||


Pow pow!!
|--12-12-12-12-12-12-x-x------------|--12-12-12-12-12-12-x-x------------|
|--12-12-12-12-12-12-x-x------------|--12-12-12-12-12-12-x-x------------|
|--12-12-12-12-12-12-x-x------------|--12-12-12-12-12-12-x-x------------|
|-----------------------------------|-----------------------------------|
|------------------------5--x-7-----|------------------------5--x-7-----|
|-----------------------------------|-----------------------------------|



|--12-12-12-12-12-12-x-x------------|--12-12-12-12-12-12-x-x-----------|
|--12-12-12-12-12-12-x-x------------|--12-12-12-12-12-12-x-x-----------|
|--12-12-12-12-12-12-x-x------------|--12-12-12-12-12-12-x-x-----------|
|-----------------------------------|----------------------------------|
|------------------------5--x-7-----|------------------------5--x-7----|
|-----------------------------------|----------------------------------|


| Wont somebody testify.....
|--------------------------|-------------------------|-----------------------|
|--------------------------|-------------------------|-----------------------|
|*-------------------5-----|-------------------5-----|-----------------------|
|*--5---5------5-----5-----|--5---5------5-----5-----|-----------------------|
|---5---5------5-----------|--5---5------5-----------|-----------------------|
|---3---3---3--3--3-----3--|--3---3---3--3--3-----3--|--5---5---3--5-5-------|


Johnny!.....
|-------------------------||--------------------------|
|-------------------------||--------------------------|
|------------------------*||--------------------------|
|------------------------*||--7--7--7--7--7--7--7--7--|
|-------------------------||--5--5--5--5--5--5--5--5--|
|--5-5--5---3--5-5--------||--------------------------|

Jonny JOHNNY!!!! | Outro
|----------------------------------|--12-12-12-12-12-12-x-x------------|
|----------------------------------|--12-12-12-12-12-12-x-x------------|
|----------------------------------|--12-12-12-12-12-12-x-x------------|
|--10--10--10--10--10--10--10--10--|-----------------------------------|
|--8---8---8---8---8---8---8----8--|------------------------5--x-7-----|
|----------------------------------|-----------------------------------|



|--12-12-12-12-12-12-x-x------------|--12-12-12-12-12-12-x-x------------|
|--12-12-12-12-12-12-x-x------------|--12-12-12-12-12-12-x-x------------|
|--12-12-12-12-12-12-x-x------------|--12-12-12-12-12-12-x-x------------|
|-----------------------------------|-----------------------------------|
|------------------------5--x-7-----|------------------------5--x-7-----|
|-----------------------------------|-----------------------------------|



|--12-12-12-12-12-12-x-x------------|-------------------|
|--12-12-12-12-12-12-x-x------------|-------------------|
|--12-12-12-12-12-12-x-x------------|-------------------|
|-----------------------------------|-------------------|
|------------------------5--x-7-----|-------------------|
|-----------------------------------|--0----------------|

*************************************************************************
*************************************************************************
Flea
Bass Tab.

INTRO
G||----------------------------------|----------------------------------|
D||----------------------------------|----------------------------------|
A||----------------------------------|----------------------------------|
E||--5-0-4-0-3-0-2-0-5-0-0-4-0-0-3-0-|--5-0-4-0-3-0-2-0-5-0-0-4-0-0-3-0-|



|----------------------------------|----------------------------------|
|----------------------------------|----------------------------------|
|----------------------------------|----------------------------------|
|--5-0-4-0-3-0-2-0-5-0-0-4-0-0-3-0-|--5-0-4-0-3-0-2-0-5-0-0-4-0-0-3-0-|


Verse
|----------------------------------|---------------------------------|
|*---------------------------------|---------------------------------|
|*-----5-----5-----5-----5-----5---|----5-----5-----5-----5-----5----|
|---0----2/3---2/3---2/3---2/3---3-|--0---2/3---2/3---2/3---2/3---3--|


2x
|----------------------------------|-----------------------------------||
|----------------------------------|----------------------------------*||
|----------------------------------|----------------------------------*||
|--5-0-4-0-3-0-2-0-5-0-0-4-0-0-3-0-|--5-0-4-0-3-0-2-0-5-0-0-4-0-0-3-0--||


Pow! Pow!
|--9-9-7-7-------------------------|--9-9-7-7-------------------------|
|----------9-9-8-8-7-7-5-5-7-7-5-5-|----------9-9-8-8-7-7-5-5---------|
|----------------------------------|--------------------------7-7-5-5-|
|----------------------------------|----------------------------------|



|--9-9-7-7-------------------------|----------------------------------|
|----------9-9-8-8-7-7-5-5-7-7-5-5-|----5-5---5-5---5-5---5-5---5-5-5-|
|----------------------------------|--7-----7-----7-----7-----7-------|
|----------------------------------|----------------------------------|
|

Wont some body testify....
|--------------------------|-------------------------|
|*-------------------------|-------------------------|
|*-------------------------|-------------------------|
|---3h5--3--3-0--6--3------|--3h5--3--3-0--6--3------|


S P P S P
|--------------------------|-------------------------------||
|------7--7-------------7--|------------------------------*||
|--------------------------|-----------------4------------*||
|--5-------0h3-5--0--5-----|--5h7-7-5--5-0h3---5-5----0-5--||


Slap and pop--->

Jonny... Jonny Jonny!....
|----7---7---7---7---7---7---7---7-|----10---10---10---10---10---10---10---10-|
|----------------------------------|------------------------------------------|
|--5---5---5---5---5---5---5---5---|--8----8----8----8----8----8----8----8----|
|----------------------------------|------------------------------------------|




Outro.
|--9-9-7-7-------------------------|--9-9-7-7-------------------------|
|----------9-9-8-8-7-7-5-5-7-7-5-5-|----------9-9-8-8-7-7-5-5---------|
|----------------------------------|--------------------------7-7-5-5-|
|----------------------------------|----------------------------------|



|----------------------------------|----------------------------------|
|----------------------------------|----------------------------------|
|--7-7-7-7-7-7-7-7-7-7-7-7-7-7-7-7-|--5-5-----------------------------|
|----------------------------------|------7-7-5-5-7-7-5-5-3-3-5-5-3-3-|



|-------------------||
|-------------------||
|-------------------||
|--0----------------||

if you want to really do it right do it with the Cd.

Great Bass song.Great Bass player!!!! (Flea rulz:=))



That's all..