rhcpfrance RhcpFrance
Prochain concert dans :
Flash info :
Sélection du moment :
Tablature

guitare Green Heaven (Demo Version)



Mxtabs.net - Red Hot Chili Peppers / Green Heaven (Demo Version)
Please support mxtabs by visiting our advertisers
Mxtabs / Guitar Tabs / R / Red Hot Chili Peppers / Green Heaven
(Demo Version) Rating : Not Rated

Printable Version | Read Corrections | Correct This Tab Rate This
Tab: 5.0 4.0 3.0 2.0 1.0

Buy The Official Sheet Music

Music X Tabs [http://www.mxtabs.net]
#----------------------------------PLEASE NOTE--------------------------------#
#This file is the author's own work and represents their interpretation of the#
#song. You may only use this file for private study, scholarship, or research.#
#-----------------------------------------------------------------------------#
#-- File created with Instab - http://www.pconline.com/~smcarey/instab.html --#
#-----------------------------------------------------------------------------#

Author/Artist: Red Hot Chili Peppers
Title: Green Heaven (Demo Version)
Album: Out In L.A.
Transcribed by: Greenie 12
Email: onkel44@hotmail.com


Tuning: (E,A,D,G,B,e)


Intro: w/Talk-Box

On the album version from their first
record...they play this, before the
verse starts...and they also played
it like this live.

G5 G5 G5 G5 G5 A5 G5
e-|-----------------------------------------------------|-
B-|--------x-x--------x-x-x-x---------------------------|-
G-|--------x-x--------x-x-x-x---------------------------|-
D-|--5--5--x-x--5--5--x-x-x-x--5---5-5----5----5--7--5--|-
A-|--x--x--x-x--x--x--x-x-x-x--x---x-x----x----x--x--x--|-
E-|--3--3-------3--3-----------3---3-3----3----3--5--3--|-

Then go to the verse.

Verse:

E E7#9
e-|------------------------------|-----------------------------|-
B-|-----8-8-8-8--x-x-x-----x-----|-----8-8-8-8--x-x------------|-
G-|-----7-7-7-7--x-x-x-----x-----|-----7-7-7-7--x-x------------|-
D-|-----6-6-6-6--x-x-x--6--x--5--|-----6-6-6-6--x-x--6----5----|-
A-|-----7-7-7-7--x-x-x-----x-----|-----7-7-7-7--x-x------------|-
E-|--0------------------4-----3--|--0------------------4----3--|-
Demo Version Live

Chorus:

e-|----------------|----------------|----------------|----------------|-
B-|----------------|----------------|----------------|----------------|-
G-|----------------|----------------|----------------|----------------|-
D-|-----5p3---3----|-----5p3---3----|-----5p3---3----|-----5p3---3----|-
A-|---------5------|---------5------|---------5------|---------5------|-
E-|--3-------------|--3-------------|--3-------------|--3-------------|-


e-|----------------|------------------------|----------------|----------------|-
B-|----------------|----------------5-5--x--|----------------|----------------|-
G-|----------------|----------------5-5--x--|----------------|----------------|-
D-|-----5p3---3----|-----5p3---3------------|-----5p3---3----|-----5p3---3----|-
A-|---------5------|---------5--------------|---------5------|---------5------|-
E-|--3-------------|--3---------------------|--3-------------|--3-------------|-

Verse 2: Mute strings

e-|-----------------------|-----------------------|-
B-|--x-x-x-x-x-x-x-x-x-x--|--x-x-x-x-x-x-x-x-x-x--|-
G-|--x-x-x-x-x-x-x-x-x-x--|--x-x-x-x-x-x-x-x-x-x--|-
D-|--x-x-x-x-x-x-x-x-x-x--|--x-x-x-x-x-x-x-x-x-x--|-
A-|--x-x-x-x-x-x-x-x-x-x--|--x-x-x-x-x-x-x-x-x-x--|-
E-|-----------------------|-----------------------|-

Interlude:

e-|------------------------------|------------------------------|-
B-|------------------------------|------------------------------|-
G-|------------------------------|------------------------------|-
D-|------------------------------|------------------------------|-
A-|------------------------------|------------------------------|-
E-|--5--5--5-5--6--5--5--5-5--6--|--5--5--5-5--6--5--5--5-5--6--|-

Pinch Harmonic
e-|------------------------------|---------------------------|-
B-|------------------------------|---------------------------|-
G-|------------------------------|---------------------------|-
D-|------------------------------|---------------<*5*>~~~~~--|-
A-|------------------------------|---------------------------|-
E-|--5--5--5-5--6--5--5--5-5--6--|--5--5--5-5-0--------------|-


Outro: w/ Talk-Box

Use E-Blues Scale or E-Minor
Pentatonic Scale...I think.


Corrections on this Tab :
Corrections are brief messages that point out specific errors and how they
can be fixed. These corrections are intended to correct and enhance the
tabs in this archive, so that the overall quality can be improved. Please
do not make a correction unless you have something usefull to say that
will improve the tabs in this archive. If you find a correction that
violates these rules, please report it.
Thanks, mxtabs
Click Here to View the Corrections